ISO-10303-21;
HEADER;
FILE_DESCRIPTION (( 'STEP AP203' ),
    '1' );
FILE_NAME ('BK7-LPBSC-10-1550.STEP',
    '2020-12-22T03:09:45',
    ( '' ),
    ( '' ),
    'SwSTEP 2.0',
    'SolidWorks 2020',
    '' );
FILE_SCHEMA (( 'CONFIG_CONTROL_DESIGN' ));
ENDSEC;

DATA;
#1 = DATE_AND_TIME ( #294, #161 ) ;
#2 = ORIENTED_EDGE ( 'NONE', *, *, #16, .F. ) ;
#3 = VECTOR ( 'NONE', #127, 1000.000000000000000 ) ;
#4 = CARTESIAN_POINT ( 'NONE',  ( 5.000000000000000888, 5.000000000000001776, 5.000000000000000000 ) ) ;
#5 = AXIS2_PLACEMENT_3D ( 'NONE', #139, #261, #108 ) ;
#6 = CC_DESIGN_PERSON_AND_ORGANIZATION_ASSIGNMENT ( #246, #217, ( #7 ) ) ;
#7 = SECURITY_CLASSIFICATION ( '', '', #297 ) ;
#8 = VERTEX_POINT ( 'NONE', #190 ) ;
#9 = DIRECTION ( 'NONE',  ( 0.000000000000000000, 0.000000000000000000, 1.000000000000000000 ) ) ;
#10 = APPLICATION_PROTOCOL_DEFINITION ( 'international standard', 'config_control_design', 1994, #141 ) ;
#11 = DIRECTION ( 'NONE',  ( -0.000000000000000000, -0.000000000000000000, -1.000000000000000000 ) ) ;
#12 = EDGE_CURVE ( 'NONE', #15, #75, #319, .T. ) ;
#13 = ADVANCED_BREP_SHAPE_REPRESENTATION ( 'BK7-LPBSC-10-1550', ( #211, #104, #216 ), #101 ) ;
#14 = CARTESIAN_POINT ( 'NONE',  ( 5.000000000000000888, 5.000000000000001776, 5.000000000000000000 ) ) ;
#15 = VERTEX_POINT ( 'NONE', #140 ) ;
#16 = EDGE_CURVE ( 'NONE', #75, #38, #121, .T. ) ;
#17 = APPROVAL_DATE_TIME ( #311, #228 ) ;
#18 = EDGE_LOOP ( 'NONE', ( #250, #174, #142 ) ) ;
#19 = PLANE ( 'NONE',  #291 ) ;
#20 = CALENDAR_DATE ( 2020, 22, 12 ) ;
#21 = LINE ( 'NONE', #97, #176 ) ;
#22 = CARTESIAN_POINT ( 'NONE',  ( 5.000000000000000888, -5.000000000000000000, 5.000000000000000000 ) ) ;
#23 = VECTOR ( 'NONE', #44, 1000.000000000000000 ) ;
#24 = CARTESIAN_POINT ( 'NONE',  ( 5.000000000000002665, 5.000000000000000000, 5.000000000000000000 ) ) ;
#25 = EDGE_LOOP ( 'NONE', ( #28, #193, #39 ) ) ;
#26 = CARTESIAN_POINT ( 'NONE',  ( -4.999999999999999112, -5.000000000000000000, -5.000000000000000000 ) ) ;
#27 = DIRECTION ( 'NONE',  ( 0.000000000000000000, 0.000000000000000000, 1.000000000000000000 ) ) ;
#28 = ORIENTED_EDGE ( 'NONE', *, *, #110, .F. ) ;
#29 = CARTESIAN_POINT ( 'NONE',  ( -5.000000000000000888, -4.999999999999998224, 5.000000000000000000 ) ) ;
#30 = PLANE ( 'NONE',  #5 ) ;
#31 = APPLICATION_PROTOCOL_DEFINITION ( 'international standard', 'config_control_design', 1994, #129 ) ;
#32 = EDGE_CURVE ( 'NONE', #203, #196, #265, .T. ) ;
#33 = CALENDAR_DATE ( 2020, 22, 12 ) ;
#34 = CLOSED_SHELL ( 'NONE', ( #213, #245, #82, #263, #288 ) ) ;
#35 = DIRECTION ( 'NONE',  ( -0.7071067811865475727, -0.7071067811865474617, 0.000000000000000000 ) ) ;
#36 = CARTESIAN_POINT ( 'NONE',  ( 5.000000000000002665, 5.000000000000000000, 5.000000000000000000 ) ) ;
#37 = CARTESIAN_POINT ( 'NONE',  ( -4.999999999999999112, -5.000000000000000000, 5.000000000000000000 ) ) ;
#38 = VERTEX_POINT ( 'NONE', #292 ) ;
#39 = ORIENTED_EDGE ( 'NONE', *, *, #12, .F. ) ;
#40 = COORDINATED_UNIVERSAL_TIME_OFFSET ( 8, 0, .AHEAD. ) ;
#41 = AXIS2_PLACEMENT_3D ( 'NONE', #209, #308, #267 ) ;
#42 = DIRECTION ( 'NONE',  ( -1.000000000000000000, 4.857225732735059864E-17, 0.000000000000000000 ) ) ;
#43 = DATE_AND_TIME ( #195, #133 ) ;
#44 = DIRECTION ( 'NONE',  ( -0.000000000000000000, 0.000000000000000000, -1.000000000000000000 ) ) ;
#45 = PRODUCT_DEFINITION_SHAPE ( 'NONE', 'NONE',  #181 ) ;
#46 = PERSON_AND_ORGANIZATION_ROLE ( 'creator' ) ;
#47 = EDGE_CURVE ( 'NONE', #214, #196, #223, .T. ) ;
#48 = ORIENTED_EDGE ( 'NONE', *, *, #229, .T. ) ;
#49 = DIRECTION ( 'NONE',  ( 0.7071067811865475727, 0.7071067811865474617, 0.000000000000000000 ) ) ;
#50 = EDGE_LOOP ( 'NONE', ( #259, #230, #114 ) ) ;
#51 = LINE ( 'NONE', #29, #314 ) ;
#52 = CC_DESIGN_SECURITY_CLASSIFICATION ( #7, ( #73 ) ) ;
#53 = EDGE_LOOP ( 'NONE', ( #99, #171, #67, #206 ) ) ;
#54 = CARTESIAN_POINT ( 'NONE',  ( -5.000000000000000888, -4.999999999999998224, 5.000000000000000000 ) ) ;
#55 = VERTEX_POINT ( 'NONE', #69 ) ;
#56 = DIRECTION ( 'NONE',  ( -0.7071067811865475727, -0.7071067811865474617, 0.000000000000000000 ) ) ;
#57 = VECTOR ( 'NONE', #11, 1000.000000000000000 ) ;
#58 = DIRECTION ( 'NONE',  ( 1.000000000000000000, 0.000000000000000000, 0.000000000000000000 ) ) ;
#59 = PERSON_AND_ORGANIZATION ( #184, #282 ) ;
#60 = DIRECTION ( 'NONE',  ( 0.7071067811865475727, 0.7071067811865474617, 0.000000000000000000 ) ) ;
#61 = CC_DESIGN_PERSON_AND_ORGANIZATION_ASSIGNMENT ( #318, #301, ( #73 ) ) ;
#62 = PLANE ( 'NONE',  #63 ) ;
#63 = AXIS2_PLACEMENT_3D ( 'NONE', #244, #271, #159 ) ;
#64 = PRODUCT_RELATED_PRODUCT_CATEGORY ( 'detail', '', ( #145 ) ) ;
#65 = EDGE_LOOP ( 'NONE', ( #83, #296, #208, #92 ) ) ;
#66 = ORIENTED_EDGE ( 'NONE', *, *, #256, .F. ) ;
#67 = ORIENTED_EDGE ( 'NONE', *, *, #80, .F. ) ;
#68 = PERSON_AND_ORGANIZATION ( #184, #282 ) ;
#69 = CARTESIAN_POINT ( 'NONE',  ( 5.000000000000000888, 5.000000000000001776, 5.000000000000000000 ) ) ;
#70 = PERSON_AND_ORGANIZATION ( #184, #282 ) ;
#71 = ORIENTED_EDGE ( 'NONE', *, *, #192, .F. ) ;
#72 = FACE_OUTER_BOUND ( 'NONE', #270, .T. ) ;
#73 = PRODUCT_DEFINITION_FORMATION_WITH_SPECIFIED_SOURCE ( 'ANY', '', #145, .NOT_KNOWN. ) ;
#74 = ADVANCED_FACE ( 'NONE', ( #72 ), #62, .F. ) ;
#75 = VERTEX_POINT ( 'NONE', #268 ) ;
#76 = CARTESIAN_POINT ( 'NONE',  ( 5.000000000000002665, 5.000000000000000000, -5.000000000000000000 ) ) ;
#77 = APPROVAL_STATUS ( 'not_yet_approved' ) ;
#78 = ORIENTED_EDGE ( 'NONE', *, *, #192, .T. ) ;
#79 = DIRECTION ( 'NONE',  ( 0.000000000000000000, 1.000000000000000000, 0.000000000000000000 ) ) ;
#80 = EDGE_CURVE ( 'NONE', #203, #126, #115, .T. ) ;
#81 = AXIS2_PLACEMENT_3D ( 'NONE', #132, #79, #227 ) ;
#82 = ADVANCED_FACE ( 'NONE', ( #166 ), #19, .F. ) ;
#83 = ORIENTED_EDGE ( 'NONE', *, *, #47, .T. ) ;
#84 = DIRECTION ( 'NONE',  ( -0.7071067811865474617, 0.7071067811865475727, 0.000000000000000000 ) ) ;
#85 = LINE ( 'NONE', #182, #144 ) ;
#86 = CC_DESIGN_DATE_AND_TIME_ASSIGNMENT ( #1, #96, ( #7 ) ) ;
#87 = LOCAL_TIME ( 11, 9, 45.00000000000000000, #262 ) ;
#88 = CARTESIAN_POINT ( 'NONE',  ( 5.000000000000000888, 5.000000000000001776, -5.000000000000000000 ) ) ;
#89 = APPROVAL_STATUS ( 'not_yet_approved' ) ;
#90 = ORIENTED_EDGE ( 'NONE', *, *, #16, .T. ) ;
#91 = VECTOR ( 'NONE', #219, 1000.000000000000000 ) ;
#92 = ORIENTED_EDGE ( 'NONE', *, *, #156, .T. ) ;
#93 = DIRECTION ( 'NONE',  ( -1.734723475976807094E-16, -1.000000000000000000, 0.000000000000000000 ) ) ;
#94 = PERSON_AND_ORGANIZATION_ROLE ( 'creator' ) ;
#95 = CARTESIAN_POINT ( 'NONE',  ( 5.000000000000000888, -5.000000000000000000, 5.000000000000000000 ) ) ;
#96 = DATE_TIME_ROLE ( 'classification_date' ) ;
#97 = CARTESIAN_POINT ( 'NONE',  ( 5.000000000000000888, 5.000000000000001776, 5.000000000000000000 ) ) ;
#98 = APPROVAL_STATUS ( 'not_yet_approved' ) ;
#99 = ORIENTED_EDGE ( 'NONE', *, *, #256, .T. ) ;
#100 = CARTESIAN_POINT ( 'NONE',  ( 5.000000000000002665, 5.000000000000000000, -5.000000000000000000 ) ) ;
#101 =( GEOMETRIC_REPRESENTATION_CONTEXT ( 3 ) GLOBAL_UNCERTAINTY_ASSIGNED_CONTEXT ( ( #225 ) ) GLOBAL_UNIT_ASSIGNED_CONTEXT ( ( #189, #237, #191 ) ) REPRESENTATION_CONTEXT ( 'NONE', 'WORKASPACE' ) );
#102 = FACE_OUTER_BOUND ( 'NONE', #306, .T. ) ;
#103 = CARTESIAN_POINT ( 'NONE',  ( -4.999999999999999112, -5.000000000000000000, -5.000000000000000000 ) ) ;
#104 = MANIFOLD_SOLID_BREP ( '¾µÏ', #34 ) ;
#105 = VECTOR ( 'NONE', #207, 1000.000000000000000 ) ;
#106 = ORIENTED_EDGE ( 'NONE', *, *, #210, .F. ) ;
#107 = LINE ( 'NONE', #24, #3 ) ;
#108 = DIRECTION ( 'NONE',  ( 2.220446049250313081E-16, 1.000000000000000000, 0.000000000000000000 ) ) ;
#109 = FACE_OUTER_BOUND ( 'NONE', #50, .T. ) ;
#110 = EDGE_CURVE ( 'NONE', #55, #15, #118, .T. ) ;
#111 = DIRECTION ( 'NONE',  ( -0.000000000000000000, 0.000000000000000000, 1.000000000000000000 ) ) ;
#112 = APPROVAL_PERSON_ORGANIZATION ( #146, #119, #277 ) ;
#113 = CARTESIAN_POINT ( 'NONE',  ( -4.999999999999999112, -5.000000000000000000, 5.000000000000000000 ) ) ;
#114 = ORIENTED_EDGE ( 'NONE', *, *, #186, .T. ) ;
#115 = LINE ( 'NONE', #120, #254 ) ;
#116 = CALENDAR_DATE ( 2020, 22, 12 ) ;
#117 = AXIS2_PLACEMENT_3D ( 'NONE', #54, #153, #27 ) ;
#118 = LINE ( 'NONE', #274, #281 ) ;
#119 = APPROVAL ( #77, 'UNSPECIFIED' ) ;
#120 = CARTESIAN_POINT ( 'NONE',  ( 5.000000000000002665, 5.000000000000000000, 5.000000000000000000 ) ) ;
#121 = LINE ( 'NONE', #321, #23 ) ;
#122 = VECTOR ( 'NONE', #162, 1000.000000000000000 ) ;
#123 = APPROVAL_DATE_TIME ( #197, #248 ) ;
#124 = PLANE ( 'NONE',  #117 ) ;
#125 = LOCAL_TIME ( 11, 9, 45.00000000000000000, #40 ) ;
#126 = VERTEX_POINT ( 'NONE', #37 ) ;
#127 = DIRECTION ( 'NONE',  ( 1.734723475976807094E-16, 1.000000000000000000, -0.000000000000000000 ) ) ;
#128 = ADVANCED_FACE ( 'NONE', ( #138 ), #251, .F. ) ;
#129 = APPLICATION_CONTEXT ( 'configuration controlled 3d designs of mechanical parts and assemblies' ) ;
#130 = ORIENTED_EDGE ( 'NONE', *, *, #229, .F. ) ;
#131 = LINE ( 'NONE', #4, #147 ) ;
#132 = CARTESIAN_POINT ( 'NONE',  ( -4.999999999999999112, -5.000000000000000000, 5.000000000000000000 ) ) ;
#133 = LOCAL_TIME ( 11, 9, 45.00000000000000000, #252 ) ;
#134 = VERTEX_POINT ( 'NONE', #22 ) ;
#135 = FACE_OUTER_BOUND ( 'NONE', #18, .T. ) ;
#136 = EDGE_CURVE ( 'NONE', #126, #134, #148, .T. ) ;
#137 = FACE_OUTER_BOUND ( 'NONE', #25, .T. ) ;
#138 = FACE_OUTER_BOUND ( 'NONE', #65, .T. ) ;
#139 = CARTESIAN_POINT ( 'NONE',  ( 0.000000000000000000, 0.000000000000000000, 5.000000000000000000 ) ) ;
#140 = CARTESIAN_POINT ( 'NONE',  ( -5.000000000000000888, -4.999999999999998224, 5.000000000000000000 ) ) ;
#141 = APPLICATION_CONTEXT ( 'configuration controlled 3d designs of mechanical parts and assemblies' ) ;
#142 = ORIENTED_EDGE ( 'NONE', *, *, #198, .T. ) ;
#143 = CARTESIAN_POINT ( 'NONE',  ( -5.000000000000000888, -4.999999999999998224, 5.000000000000000000 ) ) ;
#144 = VECTOR ( 'NONE', #284, 1000.000000000000000 ) ;
#145 = PRODUCT ( 'BK7-LPBSC-10-1550', 'BK7-LPBSC-10-1550', '', ( #287 ) ) ;
#146 = PERSON_AND_ORGANIZATION ( #184, #282 ) ;
#147 = VECTOR ( 'NONE', #155, 1000.000000000000000 ) ;
#148 = LINE ( 'NONE', #113, #91 ) ;
#149 = DIRECTION ( 'NONE',  ( -0.7071067811865475727, -0.7071067811865474617, 0.000000000000000000 ) ) ;
#150 = CARTESIAN_POINT ( 'NONE',  ( 5.000000000000000888, 5.000000000000001776, 5.000000000000000000 ) ) ;
#151 = AXIS2_PLACEMENT_3D ( 'NONE', #242, #315, #93 ) ;
#152 = ORIENTED_EDGE ( 'NONE', *, *, #12, .T. ) ;
#153 = DIRECTION ( 'NONE',  ( 1.000000000000000000, -2.220446049250313081E-16, 0.000000000000000000 ) ) ;
#154 = ORIENTED_EDGE ( 'NONE', *, *, #260, .T. ) ;
#155 = DIRECTION ( 'NONE',  ( 1.000000000000000000, -4.857225732735059864E-17, 0.000000000000000000 ) ) ;
#156 = EDGE_CURVE ( 'NONE', #134, #214, #212, .T. ) ;
#157 = PERSON_AND_ORGANIZATION_ROLE ( 'design_owner' ) ;
#158 = CARTESIAN_POINT ( 'NONE',  ( 0.000000000000000000, 0.000000000000000000, 5.000000000000000000 ) ) ;
#159 = DIRECTION ( 'NONE',  ( 1.000000000000000000, 0.000000000000000000, 0.000000000000000000 ) ) ;
#160 = DIRECTION ( 'NONE',  ( 0.7071067811865474617, -0.7071067811865475727, 0.000000000000000000 ) ) ;
#161 = LOCAL_TIME ( 11, 9, 45.00000000000000000, #299 ) ;
#162 = DIRECTION ( 'NONE',  ( -0.000000000000000000, -0.000000000000000000, -1.000000000000000000 ) ) ;
#163 = CARTESIAN_POINT ( 'NONE',  ( -4.999999999999999112, -5.000000000000000000, 5.000000000000000000 ) ) ;
#164 = EDGE_CURVE ( 'NONE', #55, #307, #21, .T. ) ;
#165 = ORIENTED_EDGE ( 'NONE', *, *, #47, .F. ) ;
#166 = FACE_OUTER_BOUND ( 'NONE', #234, .T. ) ;
#167 = SHAPE_DEFINITION_REPRESENTATION ( #45, #13 ) ;
#168 = EDGE_LOOP ( 'NONE', ( #78, #180, #200, #293 ) ) ;
#169 = PLANE ( 'NONE',  #81 ) ;
#170 = DATE_AND_TIME ( #116, #305 ) ;
#171 = ORIENTED_EDGE ( 'NONE', *, *, #285, .F. ) ;
#172 = CARTESIAN_POINT ( 'NONE',  ( 5.000000000000000888, 5.000000000000001776, -5.000000000000000000 ) ) ;
#173 = PERSON_AND_ORGANIZATION ( #184, #282 ) ;
#174 = ORIENTED_EDGE ( 'NONE', *, *, #201, .T. ) ;
#175 = PLANE ( 'NONE',  #185 ) ;
#176 = VECTOR ( 'NONE', #199, 1000.000000000000000 ) ;
#177 = ORIENTED_EDGE ( 'NONE', *, *, #164, .F. ) ;
#178 = DIRECTION ( 'NONE',  ( -0.000000000000000000, 0.000000000000000000, -1.000000000000000000 ) ) ;
#179 = APPROVAL_PERSON_ORGANIZATION ( #68, #248, #272 ) ;
#180 = ORIENTED_EDGE ( 'NONE', *, *, #156, .F. ) ;
#181 = PRODUCT_DEFINITION ( 'UNKNOWN', '', #73, #240 ) ;
#182 = CARTESIAN_POINT ( 'NONE',  ( -5.000000000000000888, -4.999999999999998224, -5.000000000000000000 ) ) ;
#183 = ADVANCED_FACE ( 'NONE', ( #298 ), #169, .F. ) ;
#184 = PERSON ( 'UNSPECIFIED', 'UNSPECIFIED', 'UNSPECIFIED', ('UNSPECIFIED'), ('UNSPECIFIED'), ('UNSPECIFIED') ) ;
#185 = AXIS2_PLACEMENT_3D ( 'NONE', #150, #84, #49 ) ;
#186 = EDGE_CURVE ( 'NONE', #134, #203, #107, .T. ) ;
#187 = APPROVAL_ROLE ( '' ) ;
#188 = AXIS2_PLACEMENT_3D ( 'NONE', #36, #160, #60 ) ;
#189 =( LENGTH_UNIT ( ) NAMED_UNIT ( * ) SI_UNIT ( .MILLI., .METRE. ) );
#190 = CARTESIAN_POINT ( 'NONE',  ( -5.000000000000000888, -4.999999999999998224, -5.000000000000000000 ) ) ;
#191 =( NAMED_UNIT ( * ) SI_UNIT ( $, .STERADIAN. ) SOLID_ANGLE_UNIT ( ) );
#192 = EDGE_CURVE ( 'NONE', #222, #214, #235, .T. ) ;
#193 = ORIENTED_EDGE ( 'NONE', *, *, #260, .F. ) ;
#194 = CARTESIAN_POINT ( 'NONE',  ( 5.000000000000002665, 5.000000000000000000, 5.000000000000000000 ) ) ;
#195 = CALENDAR_DATE ( 2020, 22, 12 ) ;
#196 = VERTEX_POINT ( 'NONE', #76 ) ;
#197 = DATE_AND_TIME ( #20, #125 ) ;
#198 = EDGE_CURVE ( 'NONE', #38, #307, #204, .T. ) ;
#199 = DIRECTION ( 'NONE',  ( -0.000000000000000000, 0.000000000000000000, -1.000000000000000000 ) ) ;
#200 = ORIENTED_EDGE ( 'NONE', *, *, #136, .F. ) ;
#201 = EDGE_CURVE ( 'NONE', #8, #38, #85, .T. ) ;
#202 = APPROVAL_DATE_TIME ( #170, #119 ) ;
#203 = VERTEX_POINT ( 'NONE', #278 ) ;
#204 = LINE ( 'NONE', #302, #290 ) ;
#205 = VECTOR ( 'NONE', #247, 1000.000000000000000 ) ;
#206 = ORIENTED_EDGE ( 'NONE', *, *, #32, .T. ) ;
#207 = DIRECTION ( 'NONE',  ( 1.000000000000000000, 0.000000000000000000, 0.000000000000000000 ) ) ;
#208 = ORIENTED_EDGE ( 'NONE', *, *, #186, .F. ) ;
#209 = CARTESIAN_POINT ( 'NONE',  ( 0.000000000000000000, 0.000000000000000000, -5.000000000000000000 ) ) ;
#210 = EDGE_CURVE ( 'NONE', #307, #8, #303, .T. ) ;
#211 = MANIFOLD_SOLID_BREP ( 'Í¹Ì¨-À', #224 ) ;
#212 = LINE ( 'NONE', #95, #312 ) ;
#213 = ADVANCED_FACE ( 'NONE', ( #102 ), #175, .F. ) ;
#214 = VERTEX_POINT ( 'NONE', #253 ) ;
#215 = DIRECTION ( 'NONE',  ( 2.220446049250313081E-16, 1.000000000000000000, 0.000000000000000000 ) ) ;
#216 = AXIS2_PLACEMENT_3D ( 'NONE', #286, #9, #58 ) ;
#217 = PERSON_AND_ORGANIZATION_ROLE ( 'classification_officer' ) ;
#218 = EDGE_LOOP ( 'NONE', ( #280, #130, #152, #90 ) ) ;
#219 = DIRECTION ( 'NONE',  ( 1.000000000000000000, 0.000000000000000000, 0.000000000000000000 ) ) ;
#220 = DATE_TIME_ROLE ( 'creation_date' ) ;
#221 = DIRECTION ( 'NONE',  ( -4.857225732735059864E-17, -1.000000000000000000, 0.000000000000000000 ) ) ;
#222 = VERTEX_POINT ( 'NONE', #26 ) ;
#223 = LINE ( 'NONE', #100, #205 ) ;
#224 = CLOSED_SHELL ( 'NONE', ( #279, #183, #128, #317, #74 ) ) ;
#225 = UNCERTAINTY_MEASURE_WITH_UNIT (LENGTH_MEASURE( 1.000000000000000082E-05 ), #189, 'distance_accuracy_value', 'NONE');
#226 = LINE ( 'NONE', #231, #304 ) ;
#227 = DIRECTION ( 'NONE',  ( 0.000000000000000000, -0.000000000000000000, 1.000000000000000000 ) ) ;
#228 = APPROVAL ( #89, 'UNSPECIFIED' ) ;
#229 = EDGE_CURVE ( 'NONE', #15, #8, #51, .T. ) ;
#230 = ORIENTED_EDGE ( 'NONE', *, *, #136, .T. ) ;
#231 = CARTESIAN_POINT ( 'NONE',  ( 5.000000000000002665, 5.000000000000000000, -5.000000000000000000 ) ) ;
#232 = VECTOR ( 'NONE', #255, 1000.000000000000000 ) ;
#233 = AXIS2_PLACEMENT_3D ( 'NONE', #158, #111, #269 ) ;
#234 = EDGE_LOOP ( 'NONE', ( #273, #2, #154, #257 ) ) ;
#235 = LINE ( 'NONE', #103, #105 ) ;
#236 = CC_DESIGN_PERSON_AND_ORGANIZATION_ASSIGNMENT ( #173, #46, ( #73 ) ) ;
#237 =( NAMED_UNIT ( * ) PLANE_ANGLE_UNIT ( ) SI_UNIT ( $, .RADIAN. ) );
#238 = LINE ( 'NONE', #163, #57 ) ;
#239 = CC_DESIGN_PERSON_AND_ORGANIZATION_ASSIGNMENT ( #70, #94, ( #181 ) ) ;
#240 = DESIGN_CONTEXT ( 'detailed design', #141, 'design' ) ;
#241 = CC_DESIGN_APPROVAL ( #248, ( #7 ) ) ;
#242 = CARTESIAN_POINT ( 'NONE',  ( 5.000000000000002665, 5.000000000000000000, 5.000000000000000000 ) ) ;
#243 = PLANE ( 'NONE',  #188 ) ;
#244 = CARTESIAN_POINT ( 'NONE',  ( 0.000000000000000000, 0.000000000000000000, -5.000000000000000000 ) ) ;
#245 = ADVANCED_FACE ( 'NONE', ( #283 ), #124, .F. ) ;
#246 = PERSON_AND_ORGANIZATION ( #184, #282 ) ;
#247 = DIRECTION ( 'NONE',  ( 1.734723475976807094E-16, 1.000000000000000000, -0.000000000000000000 ) ) ;
#248 = APPROVAL ( #98, 'UNSPECIFIED' ) ;
#249 = DIRECTION ( 'NONE',  ( -0.000000000000000000, -0.000000000000000000, -1.000000000000000000 ) ) ;
#250 = ORIENTED_EDGE ( 'NONE', *, *, #210, .T. ) ;
#251 = PLANE ( 'NONE',  #151 ) ;
#252 = COORDINATED_UNIVERSAL_TIME_OFFSET ( 8, 0, .AHEAD. ) ;
#253 = CARTESIAN_POINT ( 'NONE',  ( 5.000000000000000888, -5.000000000000000000, -5.000000000000000000 ) ) ;
#254 = VECTOR ( 'NONE', #35, 1000.000000000000000 ) ;
#255 = DIRECTION ( 'NONE',  ( -0.7071067811865475727, -0.7071067811865474617, 0.000000000000000000 ) ) ;
#256 = EDGE_CURVE ( 'NONE', #196, #222, #226, .T. ) ;
#257 = ORIENTED_EDGE ( 'NONE', *, *, #164, .T. ) ;
#258 = DIRECTION ( 'NONE',  ( 1.000000000000000000, -4.857225732735059864E-17, 0.000000000000000000 ) ) ;
#259 = ORIENTED_EDGE ( 'NONE', *, *, #80, .T. ) ;
#260 = EDGE_CURVE ( 'NONE', #75, #55, #131, .T. ) ;
#261 = DIRECTION ( 'NONE',  ( 0.000000000000000000, -0.000000000000000000, 1.000000000000000000 ) ) ;
#262 = COORDINATED_UNIVERSAL_TIME_OFFSET ( 8, 0, .AHEAD. ) ;
#263 = ADVANCED_FACE ( 'NONE', ( #137 ), #30, .T. ) ;
#264 = VECTOR ( 'NONE', #215, 1000.000000000000000 ) ;
#265 = LINE ( 'NONE', #194, #122 ) ;
#266 = CC_DESIGN_APPROVAL ( #119, ( #73 ) ) ;
#267 = DIRECTION ( 'NONE',  ( 2.220446049250313081E-16, 1.000000000000000000, 0.000000000000000000 ) ) ;
#268 = CARTESIAN_POINT ( 'NONE',  ( -4.999999999999999112, 5.000000000000001776, 5.000000000000000000 ) ) ;
#269 = DIRECTION ( 'NONE',  ( 1.000000000000000000, 0.000000000000000000, 0.000000000000000000 ) ) ;
#270 = EDGE_LOOP ( 'NONE', ( #66, #165, #71 ) ) ;
#271 = DIRECTION ( 'NONE',  ( -0.000000000000000000, 0.000000000000000000, 1.000000000000000000 ) ) ;
#272 = APPROVAL_ROLE ( '' ) ;
#273 = ORIENTED_EDGE ( 'NONE', *, *, #198, .F. ) ;
#274 = CARTESIAN_POINT ( 'NONE',  ( 5.000000000000000888, 5.000000000000001776, 5.000000000000000000 ) ) ;
#275 = CC_DESIGN_DATE_AND_TIME_ASSIGNMENT ( #43, #220, ( #181 ) ) ;
#276 = CC_DESIGN_APPROVAL ( #228, ( #181 ) ) ;
#277 = APPROVAL_ROLE ( '' ) ;
#278 = CARTESIAN_POINT ( 'NONE',  ( 5.000000000000002665, 5.000000000000000000, 5.000000000000000000 ) ) ;
#279 = ADVANCED_FACE ( 'NONE', ( #289 ), #243, .F. ) ;
#280 = ORIENTED_EDGE ( 'NONE', *, *, #201, .F. ) ;
#281 = VECTOR ( 'NONE', #149, 1000.000000000000000 ) ;
#282 = ORGANIZATION ( 'UNSPECIFIED', 'UNSPECIFIED', '' ) ;
#283 = FACE_OUTER_BOUND ( 'NONE', #218, .T. ) ;
#284 = DIRECTION ( 'NONE',  ( 2.220446049250313081E-16, 1.000000000000000000, 0.000000000000000000 ) ) ;
#285 = EDGE_CURVE ( 'NONE', #126, #222, #238, .T. ) ;
#286 = CARTESIAN_POINT ( 'NONE',  ( 0.000000000000000000, 0.000000000000000000, 0.000000000000000000 ) ) ;
#287 = MECHANICAL_CONTEXT ( 'NONE', #129, 'mechanical' ) ;
#288 = ADVANCED_FACE ( 'NONE', ( #135 ), #309, .F. ) ;
#289 = FACE_OUTER_BOUND ( 'NONE', #53, .T. ) ;
#290 = VECTOR ( 'NONE', #258, 1000.000000000000000 ) ;
#291 = AXIS2_PLACEMENT_3D ( 'NONE', #14, #221, #42 ) ;
#292 = CARTESIAN_POINT ( 'NONE',  ( -4.999999999999999112, 5.000000000000001776, -5.000000000000000000 ) ) ;
#293 = ORIENTED_EDGE ( 'NONE', *, *, #285, .T. ) ;
#294 = CALENDAR_DATE ( 2020, 22, 12 ) ;
#295 = CC_DESIGN_PERSON_AND_ORGANIZATION_ASSIGNMENT ( #59, #157, ( #145 ) ) ;
#296 = ORIENTED_EDGE ( 'NONE', *, *, #32, .F. ) ;
#297 = SECURITY_CLASSIFICATION_LEVEL ( 'unclassified' ) ;
#298 = FACE_OUTER_BOUND ( 'NONE', #168, .T. ) ;
#299 = COORDINATED_UNIVERSAL_TIME_OFFSET ( 8, 0, .AHEAD. ) ;
#300 = ORIENTED_EDGE ( 'NONE', *, *, #110, .T. ) ;
#301 = PERSON_AND_ORGANIZATION_ROLE ( 'design_supplier' ) ;
#302 = CARTESIAN_POINT ( 'NONE',  ( 5.000000000000000888, 5.000000000000001776, -5.000000000000000000 ) ) ;
#303 = LINE ( 'NONE', #172, #232 ) ;
#304 = VECTOR ( 'NONE', #56, 1000.000000000000000 ) ;
#305 = LOCAL_TIME ( 11, 9, 45.00000000000000000, #320 ) ;
#306 = EDGE_LOOP ( 'NONE', ( #106, #177, #300, #48 ) ) ;
#307 = VERTEX_POINT ( 'NONE', #88 ) ;
#308 = DIRECTION ( 'NONE',  ( 0.000000000000000000, -0.000000000000000000, 1.000000000000000000 ) ) ;
#309 = PLANE ( 'NONE',  #41 ) ;
#310 = PERSON_AND_ORGANIZATION ( #184, #282 ) ;
#311 = DATE_AND_TIME ( #33, #87 ) ;
#312 = VECTOR ( 'NONE', #249, 1000.000000000000000 ) ;
#313 = PLANE ( 'NONE',  #233 ) ;
#314 = VECTOR ( 'NONE', #178, 1000.000000000000000 ) ;
#315 = DIRECTION ( 'NONE',  ( -1.000000000000000000, 1.734723475976807094E-16, 0.000000000000000000 ) ) ;
#316 = APPROVAL_PERSON_ORGANIZATION ( #310, #228, #187 ) ;
#317 = ADVANCED_FACE ( 'NONE', ( #109 ), #313, .T. ) ;
#318 = PERSON_AND_ORGANIZATION ( #184, #282 ) ;
#319 = LINE ( 'NONE', #143, #264 ) ;
#320 = COORDINATED_UNIVERSAL_TIME_OFFSET ( 8, 0, .AHEAD. ) ;
#321 = CARTESIAN_POINT ( 'NONE',  ( -4.999999999999999112, 5.000000000000001776, 5.000000000000000000 ) ) ;
ENDSEC;
END-ISO-10303-21;
